  0
SECTION
  2
HEADER
  9
$ACADVER
  1
AC1009
  9
$INSBASE
 10
52.99956799999999
 20
31.9257636866286
 30
0.0
  9
$EXTMIN
 10
52.99956799999999
 20
31.63014663881188
 30
0.0
  9
$EXTMAX
 10
271.6932125623731
 20
235.42204
 30
0.0
  9
$LIMMIN
 10
0.0
 20
0.0
  9
$LIMMAX
 10
420.0
 20
297.0
  9
$ORTHOMODE
 70
     0
  9
$REGENMODE
 70
     0
  9
$FILLMODE
 70
     1
  9
$QTEXTMODE
 70
     0
  9
$MIRRTEXT
 70
     0
  9
$DRAGMODE
 70
     2
  9
$LTSCALE
 40
1.0
  9
$OSMODE
 70
     0
  9
$ATTMODE
 70
     1
  9
$TEXTSIZE
 40
3.5
  9
$TRACEWID
 40
0.1
  9
$TEXTSTYLE
  7
STANDARD
  9
$CLAYER
  8
ITEM_50
  9
$CELTYPE
  6
BYLAYER
  9
$CECOLOR
 62
   256
  9
$DIMSCALE
 40
1.0
  9
$DIMASZ
 40
2.0
  9
$DIMEXO
 40
1.0
  9
$DIMDLI
 40
8.0
  9
$DIMRND
 40
0.0
  9
$DIMDLE
 40
0.0
  9
$DIMEXE
 40
2.0
  9
$DIMTP
 40
0.1
  9
$DIMTM
 40
0.1
  9
$DIMTXT
 40
3.5
  9
$DIMCEN
 40
2.0
  9
$DIMTSZ
 40
0.0
  9
$DIMTOL
 70
     0
  9
$DIMLIM
 70
     0
  9
$DIMTIH
 70
     0
  9
$DIMTOH
 70
     0
  9
$DIMSE1
 70
     0
  9
$DIMSE2
 70
     0
  9
$DIMTAD
 70
     1
  9
$DIMZIN
 70
     8
  9
$DIMBLK
  1

  9
$DIMASO
 70
     1
  9
$DIMSHO
 70
     1
  9
$DIMPOST
  1

  9
$DIMAPOST
  1

  9
$DIMALT
 70
     0
  9
$DIMALTD
 70
     2
  9
$DIMALTF
 40
25.39999999999999
  9
$DIMLFAC
 40
1.0
  9
$DIMTOFL
 70
     1
  9
$DIMTVP
 40
0.0
  9
$DIMTIX
 70
     0
  9
$DIMSOXD
 70
     0
  9
$DIMSAH
 70
     0
  9
$DIMBLK1
  1

  9
$DIMBLK2
  1

  9
$DIMSTYLE
  2
*UNNAMED
  9
$DIMCLRD
 70
     0
  9
$DIMCLRE
 70
     0
  9
$DIMCLRT
 70
     0
  9
$DIMTFAC
 40
1.0
  9
$DIMGAP
 40
0.09
  9
$LUNITS
 70
     2
  9
$LUPREC
 70
     3
  9
$SKETCHINC
 40
0.1
  9
$FILLETRAD
 40
20.0
  9
$AUNITS
 70
     0
  9
$AUPREC
 70
     1
  9
$MENU
  1

  9
$ELEVATION
 40
0.0
  9
$PELEVATION
 40
0.0
  9
$THICKNESS
 40
0.0
  9
$LIMCHECK
 70
     0
  9
$BLIPMODE
 70
     0
  9
$CHAMFERA
 40
5.0
  9
$CHAMFERB
 40
5.0
  9
$SKPOLY
 70
     1
  9
$TDCREATE
 40
2448896.426005671
  9
$TDUPDATE
 40
2449393.441584375
  9
$TDINDWG
 40
0.0026261574
  9
$TDUSRTIMER
 40
0.0026261574
  9
$USRTIMER
 70
     1
  9
$ANGBASE
 50
0.0
  9
$ANGDIR
 70
     0
  9
$PDMODE
 70
     3
  9
$PDSIZE
 40
0.0
  9
$PLINEWID
 40
0.0
  9
$COORDS
 70
     2
  9
$SPLFRAME
 70
     0
  9
$SPLINETYPE
 70
     6
  9
$SPLINESEGS
 70
     8
  9
$ATTDIA
 70
     1
  9
$ATTREQ
 70
     1
  9
$HANDLING
 70
     1
  9
$HANDSEED
  5
4D91
  9
$SURFTAB1
 70
     6
  9
$SURFTAB2
 70
     6
  9
$SURFTYPE
 70
     6
  9
$SURFU
 70
     6
  9
$SURFV
 70
     6
  9
$UCSNAME
  2

  9
$UCSORG
 10
0.0
 20
0.0
 30
0.0
  9
$UCSXDIR
 10
1.0
 20
0.0
 30
0.0
  9
$UCSYDIR
 10
0.0
 20
1.0
 30
0.0
  9
$PUCSNAME
  2

  9
$PUCSORG
 10
0.0
 20
0.0
 30
0.0
  9
$PUCSXDIR
 10
1.0
 20
0.0
 30
0.0
  9
$PUCSYDIR
 10
0.0
 20
1.0
 30
0.0
  9
$USERI1
 70
     0
  9
$USERI2
 70
     3
  9
$USERI3
 70
    15
  9
$USERI4
 70
     0
  9
$USERI5
 70
     0
  9
$USERR1
 40
1.0
  9
$USERR2
 40
1.0
  9
$USERR3
 40
0.0
  9
$USERR4
 40
1.0
  9
$USERR5
 40
0.0
  9
$WORLDVIEW
 70
     5
  9
$SHADEDGE
 70
     3
  9
$SHADEDIF
 70
    70
  9
$TILEMODE
 70
     1
  9
$MAXACTVP
 70
    16
  9
$PINSBASE
 10
0.0
 20
0.0
 30
0.0
  9
$PLIMCHECK
 70
     0
  9
$PEXTMIN
 10
1.000000000000000E+20
 20
1.000000000000000E+20
 30
1.000000000000000E+20
  9
$PEXTMAX
 10
-1.000000000000000E+20
 20
-1.000000000000000E+20
 30
-1.000000000000000E+20
  9
$PLIMMIN
 10
0.0
 20
0.0
  9
$PLIMMAX
 10
12.0
 20
9.0
  9
$UNITMODE
 70
     0
  9
$VISRETAIN
 70
     0
  9
$PLINEGEN
 70
     0
  9
$PSLTSCALE
 70
     0
  9
$TREEDEPTH
 70
  3020
  9
$DWGCODEPAGE
  3
undefined
  0
ENDSEC
  0
SECTION
  2
TABLES
  0
TABLE
  2
VPORT
 70
     6
  0
VPORT
  2
*ACTIVE
 70
     0
 10
0.0
 20
0.0
 11
1.0
 21
1.0
 12
193.4855515271829
 22
142.0524880617507
 13
0.0
 23
0.0
 14
1.0
 24
1.0
 15
10.0
 25
10.0
 16
0.0
 26
0.0
 36
1.0
 17
0.0
 27
0.0
 37
0.0
 40
220.2534487502443
 41
1.275675675675675
 42
50.0
 43
0.0
 44
0.0
 50
0.0
 51
0.0
 71
     0
 72
   100
 73
     1
 74
     0
 75
     0
 76
     0
 77
     0
 78
     0
  0
VPORT
  2
G-AF4R
 70
     0
 10
0.0
 20
0.0
 11
0.75
 21
1.0
 12
210.0
 22
185.4098669999999
 13
0.0
 23
0.0
 14
1.0
 24
1.0
 15
10.0
 25
10.0
 16
0.0
 26
0.0
 36
1.0
 17
0.0
 27
0.0
 37
0.0
 40
370.8197339999999
 41
1.132625999999999
 42
50.0
 43
0.0
 44
0.0
 50
0.0
 51
0.0
 71
     0
 72
   100
 73
     1
 74
     1
 75
     1
 76
     1
 77
     0
 78
     0
  0
VPORT
  2
G-AF4R
 70
     0
 10
0.75
 20
0.0
 11
1.0
 21
0.333333
 12
210.0
 22
182.3023699999999
 13
0.0
 23
0.0
 14
1.0
 24
1.0
 15
10.0
 25
10.0
 16
0.0
 26
0.0
 36
1.0
 17
0.0
 27
0.0
 37
0.0
 40
364.6047399999999
 41
1.151932
 42
50.0
 43
0.0
 44
0.0
 50
0.0
 51
0.0
 71
     0
 72
   100
 73
     1
 74
     1
 75
     1
 76
     1
 77
     0
 78
     0
  0
VPORT
  2
G-AF4R
 70
     0
 10
0.75
 20
0.333333
 11
1.0
 21
0.666667
 12
210.0
 22
182.3023699999999
 13
0.0
 23
0.0
 14
1.0
 24
1.0
 15
10.0
 25
10.0
 16
0.0
 26
0.0
 36
1.0
 17
0.0
 27
0.0
 37
0.0
 40
364.6047399999999
 41
1.151932
 42
50.0
 43
0.0
 44
0.0
 50
0.0
 51
0.0
 71
     0
 72
   100
 73
     1
 74
     1
 75
     1
 76
     1
 77
     0
 78
     0
  0
VPORT
  2
G-AF4R
 70
     0
 10
0.75
 20
0.666667
 11
1.0
 21
1.0
 12
210.0
 22
184.2626099999999
 13
0.0
 23
0.0
 14
1.0
 24
1.0
 15
10.0
 25
10.0
 16
0.0
 26
0.0
 36
1.0
 17
0.0
 27
0.0
 37
0.0
 40
368.5252209999999
 41
1.139678
 42
50.0
 43
0.0
 44
0.0
 50
0.0
 51
0.0
 71
     0
 72
   100
 73
     1
 74
     1
 75
     1
 76
     1
 77
     0
 78
     0
  0
ENDTAB
  0
TABLE
  2
LTYPE
 70
     4
  0
LTYPE
  2
CONTINUOUS
 70
    64
  3
Solid line
 72
    65
 73
     0
 40
0.0
  0
LTYPE
  2
GEN
 70
    64
  3
----------------------
 72
    65
 73
     2
 40
10000000000.0
 49
0.0
 49
10000000000.0
  0
LTYPE
  2
ITEM-STRICHPGR
 70
    64
  3
____ . ____ . ____ . ____ . ____ . ____ . ____
 72
    65
 73
     4
 40
15.0
 49
10.0
 49
-2.5
 49
0.0
 49
-2.5
  0
LTYPE
  2
AUSGEZOGEN
 70
    64
  3
Solid line
 72
    65
 73
     0
 40
0.0
  0
ENDTAB
  0
TABLE
  2
LAYER
 70
     5
  0
LAYER
  2
0
 70
     0
 62
     7
  6
GEN
  0
LAYER
  2
ITEM_50
 70
    64
 62
     7
  6
CONTINUOUS
  0
LAYER
  2
ITEM_25
 70
    64
 62
     3
  6
CONTINUOUS
  0
LAYER
  2
ITEM_STPG
 70
    64
 62
     4
  6
ITEM-STRICHPGR
  0
LAYER
  2
ITEM_HILFE
 70
    64
 62
     3
  6
AUSGEZOGEN
  0
ENDTAB
  0
TABLE
  2
STYLE
 70
     2
  0
STYLE
  2
STANDARD
 70
     0
 40
0.0
 41
1.0
 50
0.0
 71
     0
 42
3.5
  3
ISO8
  4

  0
STYLE
  2
GENPRESET
 70
     0
 40
0.0
 41
1.0
 50
0.0
 71
     0
 42
3.5
  3
ISO8
  4

  0
ENDTAB
  0
TABLE
  2
VIEW
 70
     5
  0
VIEW
  2
1
 70
     0
 40
146.0
 10
113.5
 20
206.0
 41
207.0
 11
0.0
 21
0.0
 31
1.0
 12
0.0
 22
0.0
 32
0.0
 42
50.0
 43
0.0
 44
0.0
 50
0.0
 71
     0
  0
VIEW
  2
2
 70
     0
 40
128.0
 10
309.5
 20
218.0
 41
193.0
 11
0.0
 21
0.0
 31
1.0
 12
0.0
 22
0.0
 32
0.0
 42
50.0
 43
0.0
 44
0.0
 50
0.0
 71
     0
  0
VIEW
  2
3
 70
     0
 40
154.0
 10
127.0
 20
89.0
 41
220.0
 11
0.0
 21
0.0
 31
1.0
 12
0.0
 22
0.0
 32
0.0
 42
50.0
 43
0.0
 44
0.0
 50
0.0
 71
     0
  0
VIEW
  2
4
 70
     0
 40
67.0
 10
176.5
 20
43.5
 41
107.0
 11
0.0
 21
0.0
 31
1.0
 12
0.0
 22
0.0
 32
0.0
 42
50.0
 43
0.0
 44
0.0
 50
0.0
 71
     0
  0
VIEW
  2
5
 70
     0
 40
123.0
 10
207.0
 20
149.5
 41
184.0
 11
0.0
 21
0.0
 31
1.0
 12
0.0
 22
0.0
 32
0.0
 42
50.0
 43
0.0
 44
0.0
 50
0.0
 71
     0
  0
ENDTAB
  0
TABLE
  2
UCS
 70
     0
  0
ENDTAB
  0
TABLE
  2
APPID
 70
     1
  0
APPID
  2
ACAD
 70
    64
  0
ENDTAB
  0
TABLE
  2
DIMSTYLE
 70
     0
  0
ENDTAB
  0
ENDSEC
  0
SECTION
  2
BLOCKS
  0
ENDSEC
  0
SECTION
  2
ENTITIES
  0
LINE
  8
ITEM_50
  5
1BA
 10
141.1339199999999
 20
169.9218099999999
 30
0.0
 11
61.13392
 21
169.9218099999999
 31
0.0
  0
LINE
  8
ITEM_STPG
  5
5D5
 10
143.355187
 20
224.379578
 30
0.0
 11
121.6645029999999
 21
224.379578
 31
0.0
  0
LINE
  8
ITEM_50
  5
5D6
 10
136.3839199999999
 20
234.379578
 30
0.0
 11
136.3839199999999
 21
169.9218099999999
 31
0.0
  0
LINE
  8
ITEM_50
  5
5D7
 10
129.08392
 20
134.379578
 30
0.0
 11
129.08392
 21
163.9218099999999
 31
0.0
  0
LINE
  8
ITEM_50
  5
5D8
 10
129.08392
 20
234.379578
 30
0.0
 11
136.3839199999999
 21
234.379578
 31
0.0
  0
LINE
  8
ITEM_50
  5
5E8
 10
181.1339199999999
 20
134.379578
 30
0.0
 11
181.1339199999999
 21
129.379578
 31
0.0
  0
LINE
  8
ITEM_50
  5
5E9
 10
61.13392
 20
134.379578
 30
0.0
 11
61.13392
 21
129.379578
 31
0.0
  0
LINE
  8
ITEM_50
  5
5EB
 10
61.13392
 20
129.379578
 30
0.0
 11
181.1339199999999
 21
129.379578
 31
0.0
  0
CIRCLE
  8
ITEM_50
  5
60A
 10
166.1339199999999
 20
55.52402699999999
 30
0.0
 40
7.0
  0
LINE
  8
ITEM_50
  5
60B
 10
65.13392
 20
75.524027
 30
0.0
 11
177.1339199999999
 21
75.524027
 31
0.0
  0
LINE
  8
ITEM_50
  5
60C
 10
65.13392
 20
35.52402699999999
 30
0.0
 11
177.1339199999999
 21
35.52402699999999
 31
0.0
  0
ARC
  8
ITEM_50
  5
60E
 10
177.1339199999999
 20
39.52402699999999
 30
0.0
 40
4.0
 50
270.0
 51
0.0
  0
LINE
  8
ITEM_50
  5
60F
 10
181.1339199999999
 20
71.524027
 30
0.0
 11
181.1339199999999
 21
39.52402699999999
 31
0.0
  0
ARC
  8
ITEM_50
  5
610
 10
177.1339199999999
 20
71.524027
 30
0.0
 40
4.0
 50
0.0
 51
90.0
  0
ARC
  8
ITEM_50
  5
618
 10
68.93392
 20
55.52402699999999
 30
0.0
 40
4.0
 50
318.394309
 51
0.0
  0
ARC
  8
ITEM_50
  5
619
 10
59.961134
 20
63.492032
 30
0.0
 40
16.0
 50
291.8202099999999
 51
318.394311
  0
ARC
  8
ITEM_50
  5
61A
 10
65.83392
 20
48.824027
 30
0.0
 40
0.2
 50
180.0003499999999
 51
291.820197
  0
LINE
  8
ITEM_50
  5
61B
 10
65.63392
 20
48.824026
 30
0.0
 11
65.63392
 21
55.52402699999999
 31
0.0
  0
LINE
  8
ITEM_50
  5
61C
 10
65.633921
 20
62.22402799999999
 30
0.0
 11
65.63392
 21
55.52402699999999
 31
0.0
  0
ARC
  8
ITEM_50
  5
61D
 10
59.96113299999999
 20
47.55602199999999
 30
0.0
 40
16.0
 50
41.60568099999999
 51
68.179781
  0
ARC
  8
ITEM_50
  5
61E
 10
68.93392
 20
55.52402599999999
 30
0.0
 40
4.0
 50
359.999991
 51
41.605682
  0
ARC
  8
ITEM_50
  5
61F
 10
65.833921
 20
62.22402699999999
 30
0.0
 40
0.2
 50
68.179794
 51
179.9996409999999
  0
LINE
  8
ITEM_STPG
  5
622
 10
52.99956799999999
 20
55.52402699999999
 30
0.0
 11
192.4448669999999
 21
55.52402699999999
 31
0.0
  0
ARC
  8
ITEM_50
  5
623
 10
136.433919
 20
62.22402699999999
 30
0.0
 40
0.2
 50
0.000359
 51
111.8202059999999
  0
ARC
  8
ITEM_50
  5
624
 10
133.33392
 20
55.52402599999999
 30
0.0
 40
4.0
 50
138.3943179999999
 51
180.000009
  0
ARC
  8
ITEM_50
  5
625
 10
142.3067069999999
 20
47.55602199999999
 30
0.0
 40
16.0
 50
111.8202189999999
 51
138.3943189999999
  0
LINE
  8
ITEM_50
  5
627
 10
136.6339199999999
 20
62.22402799999999
 30
0.0
 11
136.6339199999999
 21
48.824026
 31
0.0
  0
ARC
  8
ITEM_50
  5
628
 10
136.43392
 20
48.824027
 30
0.0
 40
0.2
 50
248.1798029999999
 51
359.9996499999999
  0
ARC
  8
ITEM_50
  5
629
 10
142.3067059999999
 20
63.492032
 30
0.0
 40
16.0
 50
221.605689
 51
248.17979
  0
ARC
  8
ITEM_50
  5
62A
 10
133.33392
 20
55.52402699999999
 30
0.0
 40
4.0
 50
180.0
 51
221.605691
  0
LINE
  8
ITEM_50
  5
63D
 10
140.11892
 20
220.379578
 30
0.0
 11
140.11892
 21
228.379578
 31
0.0
  0
LINE
  8
ITEM_25
  5
63F
 10
140.8839199999999
 20
221.1445779999999
 30
0.0
 11
136.3839199999999
 21
221.1445779999999
 31
0.0
  0
LINE
  8
ITEM_25
  5
640
 10
140.8839199999999
 20
227.6145779999999
 30
0.0
 11
136.3839199999999
 21
227.6145779999999
 31
0.0
  0
LINE
  8
ITEM_50
  5
649
 10
140.8839199999999
 20
221.1445779999999
 30
0.0
 11
140.11892
 21
220.379578
 31
0.0
  0
LINE
  8
ITEM_50
  5
64A
 10
140.11892
 20
220.379578
 30
0.0
 11
136.3839199999999
 21
220.379578
 31
0.0
  0
LINE
  8
ITEM_50
  5
64D
 10
129.030367
 20
225.354712
 30
0.0
 11
129.08392
 21
225.408265
 31
0.0
  0
LINE
  8
ITEM_50
  5
64F
 10
140.11892
 20
228.379578
 30
0.0
 11
140.8839199999999
 21
227.6145779999999
 31
0.0
  0
LINE
  8
ITEM_50
  5
650
 10
140.8839199999999
 20
227.6145779999999
 30
0.0
 11
140.8839199999999
 21
221.1445779999999
 31
0.0
  0
LINE
  8
ITEM_50
  5
660
 10
128.8839199999999
 20
225.001159
 30
0.0
 11
128.8839199999999
 21
223.7579979999999
 31
0.0
  0
ARC
  8
ITEM_50
  5
662
 10
129.3839199999999
 20
223.7579979999999
 30
0.0
 40
0.5
 50
180.0
 51
225.0
  0
LINE
  8
ITEM_50
  5
EF6
 10
136.3839199999999
 20
228.379578
 30
0.0
 11
140.11892
 21
228.379578
 31
0.0
  0
LINE
  8
ITEM_50
  5
EF7
 10
136.3839199999999
 20
228.379578
 30
0.0
 11
136.3839199999999
 21
227.6145779999999
 31
0.0
  0
LINE
  8
ITEM_50
  5
EF8
 10
136.3839199999999
 20
227.6145779999999
 30
0.0
 11
136.3839199999999
 21
221.1445779999999
 31
0.0
  0
LINE
  8
ITEM_50
  5
EFA
 10
136.3839199999999
 20
221.1445779999999
 30
0.0
 11
136.3839199999999
 21
220.379578
 31
0.0
  0
ARC
  8
ITEM_50
  5
EFE
 10
129.3839199999999
 20
225.001159
 30
0.0
 40
0.5
 50
135.0
 51
180.0
  0
LINE
  8
ITEM_50
  5
F00
 10
129.08392
 20
169.9218099999999
 30
0.0
 11
129.08392
 21
234.379578
 31
0.0
  0
LINE
  8
ITEM_50
  5
F01
 10
129.08392
 20
223.3508909999999
 30
0.0
 11
129.030367
 21
223.404445
 31
0.0
  0
LINE
  8
ITEM_50
  5
F02
 10
129.08392
 20
223.3508909999999
 30
0.0
 11
129.08392
 21
225.408265
 31
0.0
  0
LINE
  8
ITEM_50
  5
1545
 10
73.18392
 20
163.9218099999999
 30
0.0
 11
73.18392
 21
134.379578
 31
0.0
  0
LINE
  8
ITEM_50
  5
1549
 10
136.3839199999999
 20
163.9218099999999
 30
0.0
 11
136.3839199999999
 21
134.379578
 31
0.0
  0
LINE
  8
ITEM_STPG
  5
154B
 10
166.1339199999999
 20
67.69797099999999
 30
0.0
 11
166.1339199999999
 21
44.03787599999999
 31
0.0
  0
ARC
  8
ITEM_50
  5
155F
 10
137.1339199999999
 20
39.52402699999999
 30
0.0
 40
4.0
 50
270.0
 51
0.0
  0
LINE
  8
ITEM_50
  5
1571
 10
141.1339199999999
 20
39.52402699999999
 30
0.0
 11
141.1339199999999
 21
71.524027
 31
0.0
  0
ARC
  8
ITEM_50
  5
1572
 10
137.1339199999999
 20
71.524027
 30
0.0
 40
4.0
 50
0.0
 51
90.0
  0
ARC
  8
ITEM_50
  5
1598
 10
65.13392
 20
71.524027
 30
0.0
 40
4.0
 50
90.0
 51
180.0
  0
LINE
  8
ITEM_50
  5
1599
 10
61.13392
 20
71.524027
 30
0.0
 11
61.13392
 21
50.02402699999999
 31
0.0
  0
LINE
  8
ITEM_50
  5
15AA
 10
61.13392
 20
50.02402699999999
 30
0.0
 11
61.13392
 21
39.52402699999999
 31
0.0
  0
ARC
  8
ITEM_50
  5
15AB
 10
65.13392
 20
39.52402699999999
 30
0.0
 40
4.0
 50
180.0
 51
270.0
  0
LINE
  8
ITEM_50
  5
19E4
 10
73.18392
 20
223.3508909999999
 30
0.0
 11
73.18392
 21
225.408265
 31
0.0
  0
LINE
  8
ITEM_50
  5
19E5
 10
73.18392
 20
223.3508909999999
 30
0.0
 11
73.23747299999999
 21
223.404445
 31
0.0
  0
LINE
  8
ITEM_50
  5
19E6
 10
73.18392
 20
169.9218099999999
 30
0.0
 11
73.18392
 21
234.379578
 31
0.0
  0
ARC
  8
ITEM_50
  5
19E7
 10
72.88392
 20
225.001159
 30
0.0
 40
0.5
 50
0.0
 51
45.0
  0
LINE
  8
ITEM_50
  5
19E9
 10
65.88392
 20
221.1445779999999
 30
0.0
 11
65.88392
 21
220.379578
 31
0.0
  0
LINE
  8
ITEM_50
  5
19EA
 10
65.88392
 20
227.6145779999999
 30
0.0
 11
65.88392
 21
221.1445779999999
 31
0.0
  0
LINE
  8
ITEM_50
  5
19EB
 10
65.88392
 20
228.379578
 30
0.0
 11
65.88392
 21
227.6145779999999
 31
0.0
  0
LINE
  8
ITEM_50
  5
19EC
 10
65.88392
 20
228.379578
 30
0.0
 11
62.14891999999999
 21
228.379578
 31
0.0
  0
ARC
  8
ITEM_50
  5
19ED
 10
72.88392
 20
223.7579979999999
 30
0.0
 40
0.5
 50
315.0
 51
0.0
  0
LINE
  8
ITEM_50
  5
19EE
 10
73.38392
 20
225.001159
 30
0.0
 11
73.38392
 21
223.7579979999999
 31
0.0
  0
LINE
  8
ITEM_50
  5
19EF
 10
61.38392
 20
227.6145779999999
 30
0.0
 11
61.38392
 21
221.1445779999999
 31
0.0
  0
LINE
  8
ITEM_50
  5
19F0
 10
62.14891999999999
 20
228.379578
 30
0.0
 11
61.38392
 21
227.6145779999999
 31
0.0
  0
LINE
  8
ITEM_50
  5
19F1
 10
73.23747299999999
 20
225.354712
 30
0.0
 11
73.18392
 21
225.408265
 31
0.0
  0
LINE
  8
ITEM_50
  5
19F2
 10
62.14891999999999
 20
220.379578
 30
0.0
 11
65.88392
 21
220.379578
 31
0.0
  0
LINE
  8
ITEM_50
  5
19F3
 10
61.38392
 20
221.1445779999999
 30
0.0
 11
62.14891999999999
 21
220.379578
 31
0.0
  0
LINE
  8
ITEM_25
  5
19FB
 10
61.38392
 20
227.6145779999999
 30
0.0
 11
65.88392
 21
227.6145779999999
 31
0.0
  0
LINE
  8
ITEM_25
  5
19FC
 10
61.38392
 20
221.1445779999999
 30
0.0
 11
65.88392
 21
221.1445779999999
 31
0.0
  0
LINE
  8
ITEM_50
  5
19FD
 10
62.14891999999999
 20
220.379578
 30
0.0
 11
62.14891999999999
 21
228.379578
 31
0.0
  0
LINE
  8
ITEM_50
  5
19FE
 10
73.18392
 20
234.379578
 30
0.0
 11
65.88392
 21
234.379578
 31
0.0
  0
LINE
  8
ITEM_50
  5
19FF
 10
65.88392
 20
234.379578
 30
0.0
 11
65.88392
 21
169.9218099999999
 31
0.0
  0
LINE
  8
ITEM_50
  5
1A08
 10
65.88392
 20
134.379578
 30
0.0
 11
65.88392
 21
163.9218099999999
 31
0.0
  0
LINE
  8
ITEM_50
  5
1A0C
 10
61.13392
 20
134.379578
 30
0.0
 11
181.1339199999999
 21
134.379578
 31
0.0
  0
LINE
  8
ITEM_50
  5
1A11
 10
136.6339199999999
 20
59.52402699999999
 30
0.0
 11
140.36892
 21
59.52402699999999
 31
0.0
  0
LINE
  8
ITEM_25
  5
1A12
 10
141.1339199999999
 20
58.759027
 30
0.0
 11
136.6339199999999
 21
58.759027
 31
0.0
  0
LINE
  8
ITEM_50
  5
1A13
 10
140.36892
 20
51.52402699999999
 30
0.0
 11
140.36892
 21
59.52402699999999
 31
0.0
  0
LINE
  8
ITEM_50
  5
1A14
 10
140.36892
 20
59.52402699999999
 30
0.0
 11
141.1339199999999
 21
58.759027
 31
0.0
  0
LINE
  8
ITEM_50
  5
1A15
 10
141.1339199999999
 20
58.759027
 30
0.0
 11
141.1339199999999
 21
52.28902699999999
 31
0.0
  0
LINE
  8
ITEM_25
  5
1A1D
 10
141.1339199999999
 20
52.28902699999999
 30
0.0
 11
136.6339199999999
 21
52.28902699999999
 31
0.0
  0
LINE
  8
ITEM_50
  5
1A1F
 10
141.1339199999999
 20
52.28902699999999
 30
0.0
 11
140.36892
 21
51.52402699999999
 31
0.0
  0
LINE
  8
ITEM_50
  5
1A22
 10
140.36892
 20
51.52402699999999
 30
0.0
 11
136.6339199999999
 21
51.52402699999999
 31
0.0
  0
LINE
  8
ITEM_50
  5
1A2D
 10
61.89891999999999
 20
59.52402699999999
 30
0.0
 11
61.13392
 21
58.759027
 31
0.0
  0
LINE
  8
ITEM_50
  5
1A2E
 10
61.89891999999999
 20
51.52402699999999
 30
0.0
 11
61.89891999999999
 21
59.52402699999999
 31
0.0
  0
LINE
  8
ITEM_50
  5
1A2F
 10
65.633921
 20
59.52402699999999
 30
0.0
 11
61.89891999999999
 21
59.52402699999999
 31
0.0
  0
LINE
  8
ITEM_25
  5
1A30
 10
61.13392
 20
58.759027
 30
0.0
 11
65.63392
 21
58.759027
 31
0.0
  0
LINE
  8
ITEM_50
  5
1A31
 10
61.13392
 20
58.759027
 30
0.0
 11
61.13392
 21
52.28902699999999
 31
0.0
  0
LINE
  8
ITEM_25
  5
1A39
 10
61.13392
 20
52.28902699999999
 30
0.0
 11
65.63392
 21
52.28902699999999
 31
0.0
  0
LINE
  8
ITEM_50
  5
1A3B
 10
61.13392
 20
52.28902699999999
 30
0.0
 11
61.89891999999999
 21
51.52402699999999
 31
0.0
  0
LINE
  8
ITEM_50
  5
1A3C
 10
61.89891999999999
 20
51.52402699999999
 30
0.0
 11
65.63392
 21
51.52402699999999
 31
0.0
  0
POLYLINE
  8
ITEM_50
  5
1A41
 66
     1
 10
0.0
 20
0.0
 30
0.0
 70
     1
  0
VERTEX
  8
ITEM_50
  5
1A42
 10
231.2789989999999
 20
134.379578
 30
0.0
  0
VERTEX
  8
ITEM_50
  5
1A43
 10
271.2789989999999
 20
134.379578
 30
0.0
  0
VERTEX
  8
ITEM_50
  5
1A44
 10
271.2789989999999
 20
129.379578
 30
0.0
  0
VERTEX
  8
ITEM_50
  5
1A45
 10
231.2789989999999
 20
129.379578
 30
0.0
  0
SEQEND
  8
ITEM_50
  5
1A46
  0
LINE
  8
ITEM_50
  5
1A4A
 10
244.3789989999999
 20
234.379578
 30
0.0
 11
244.3789989999999
 21
169.9218099999999
 31
0.0
  0
LINE
  8
ITEM_50
  5
1A4B
 10
258.1789989999999
 20
234.379578
 30
0.0
 11
258.1789989999999
 21
169.9218099999999
 31
0.0
  0
LINE
  8
ITEM_STPG
  5
1A72
 10
259.8847269999999
 20
224.379578
 30
0.0
 11
241.301995
 21
224.379578
 31
0.0
  0
LINE
  8
ITEM_50
  5
1A75
 10
244.3789989999999
 20
234.379578
 30
0.0
 11
258.1789989999999
 21
234.379578
 31
0.0
  0
LINE
  8
ITEM_50
  5
1A79
 10
244.3789989999999
 20
163.9218099999999
 30
0.0
 11
244.3789989999999
 21
134.379578
 31
0.0
  0
POLYLINE
  8
ITEM_50
  5
1A89
 66
     1
 10
0.0
 20
0.0
 30
0.0
  0
VERTEX
  8
ITEM_50
  5
1A8A
 10
271.2789989999999
 20
169.9218099999999
 30
0.0
  0
VERTEX
  8
ITEM_50
  5
1A8B
 10
231.2789989999999
 20
169.9218099999999
 30
0.0
  0
SEQEND
  8
ITEM_50
  5
1A8C
  0
LINE
  8
ITEM_50
  5
1A8D
 10
258.1789989999999
 20
163.9218099999999
 30
0.0
 11
258.1789989999999
 21
134.379578
 31
0.0
  0
ARC
  8
ITEM_25
  5
1A90
 10
251.2789989999999
 20
224.379578
 30
0.0
 40
3.134999999999999
 50
171.0
 51
99.0
  0
CIRCLE
  8
ITEM_50
  5
1A91
 10
251.2789989999999
 20
224.379578
 30
0.0
 40
4.0
  0
LINE
  8
ITEM_50
  5
1ACE
 10
61.13392
 20
169.9218099999999
 30
0.0
 11
61.13392
 21
165.9218099999999
 31
0.0
  0
LINE
  8
ITEM_50
  5
1ACF
 10
141.1339199999999
 20
169.9218099999999
 30
0.0
 11
141.1339199999999
 21
165.9218099999999
 31
0.0
  0
ARC
  8
ITEM_50
  5
1AD0
 10
63.13392
 20
165.9218099999999
 30
0.0
 40
2.0
 50
180.0
 51
270.0
  0
ARC
  8
ITEM_50
  5
1AD1
 10
139.1339199999999
 20
165.9218099999999
 30
0.0
 40
2.0
 50
270.0
 51
0.0
  0
LINE
  8
ITEM_50
  5
1AE5
 10
125.13392
 20
213.666131
 30
0.0
 11
117.13392
 21
213.666131
 31
0.0
  0
LINE
  8
ITEM_50
  5
1AE6
 10
125.13392
 20
137.32844
 30
0.0
 11
117.13392
 21
137.32844
 31
0.0
  0
LINE
  8
ITEM_25
  5
1AE7
 10
124.36892
 20
214.4311309999999
 30
0.0
 11
124.36892
 21
169.9218099999999
 31
0.0
  0
LINE
  8
ITEM_25
  5
1AE8
 10
117.89892
 20
214.4311309999999
 30
0.0
 11
117.89892
 21
169.9218099999999
 31
0.0
  0
LINE
  8
ITEM_STPG
  5
1AF8
 10
77.27790199999999
 20
224.379578
 30
0.0
 11
55.16743999999999
 21
224.379578
 31
0.0
  0
LINE
  8
ITEM_50
  5
1AFC
 10
124.36892
 20
214.4311309999999
 30
0.0
 11
125.13392
 21
213.666131
 31
0.0
  0
LINE
  8
ITEM_50
  5
1AFD
 10
125.13392
 20
213.666131
 30
0.0
 11
125.13392
 21
169.9218099999999
 31
0.0
  0
LINE
  8
ITEM_50
  5
1AFE
 10
125.13392
 20
137.32844
 30
0.0
 11
122.477952
 21
134.672471
 31
0.0
  0
LINE
  8
ITEM_50
  5
1B00
 10
119.789888
 20
134.672471
 30
0.0
 11
117.13392
 21
137.32844
 31
0.0
  0
LINE
  8
ITEM_50
  5
1B01
 10
117.13392
 20
137.32844
 30
0.0
 11
117.13392
 21
163.9218099999999
 31
0.0
  0
LINE
  8
ITEM_50
  5
1B02
 10
117.13392
 20
213.666131
 30
0.0
 11
117.89892
 21
214.4311309999999
 31
0.0
  0
LINE
  8
ITEM_50
  5
1B03
 10
117.89892
 20
214.4311309999999
 30
0.0
 11
124.36892
 21
214.4311309999999
 31
0.0
  0
ARC
  8
ITEM_50
  5
1B06
 10
120.4969949999999
 20
135.379578
 30
0.0
 40
1.0
 50
225.0
 51
270.0
  0
ARC
  8
ITEM_50
  5
1B07
 10
121.7708449999999
 20
135.379578
 30
0.0
 40
1.0
 50
270.0
 51
315.0
  0
LINE
  8
ITEM_50
  5
1B72
 10
117.13392
 20
137.32844
 30
0.0
 11
117.13392
 21
163.9218099999999
 31
0.0
  0
LINE
  8
ITEM_50
  5
1B75
 10
125.13392
 20
163.9218099999999
 30
0.0
 11
125.13392
 21
137.32844
 31
0.0
  0
POLYLINE
  8
ITEM_50
  5
1C59
 66
     1
 10
0.0
 20
0.0
 30
0.0
  0
VERTEX
  8
ITEM_50
  5
1C5A
 10
114.3764879999999
 20
169.9218099999999
 30
0.0
  0
VERTEX
  8
ITEM_50
  5
1C5B
 10
114.3764879999999
 20
169.8938899999999
 30
0.0
  0
SEQEND
  8
ITEM_50
  5
1C5C
  0
LINE
  8
ITEM_50
  5
1CA6
 10
63.13392
 20
163.9218099999999
 30
0.0
 11
139.1339199999999
 21
163.9218099999999
 31
0.0
  0
LINE
  8
ITEM_50
  5
221F
 10
231.2789989999999
 20
169.9218099999999
 30
0.0
 11
231.2789989999999
 21
165.9218099999999
 31
0.0
  0
LINE
  8
ITEM_50
  5
2220
 10
271.2789989999999
 20
169.9218099999999
 30
0.0
 11
271.2789989999999
 21
165.9218099999999
 31
0.0
  0
LINE
  8
ITEM_50
  5
2221
 10
269.2789989999999
 20
163.9218099999999
 30
0.0
 11
233.2789989999999
 21
163.9218099999999
 31
0.0
  0
ARC
  8
ITEM_50
  5
2222
 10
233.2789989999999
 20
165.9218099999999
 30
0.0
 40
2.0
 50
180.0
 51
270.0
  0
ARC
  8
ITEM_50
  5
2223
 10
269.2789989999999
 20
165.9218099999999
 30
0.0
 40
2.0
 50
270.0
 51
0.0
  0
LINE
  8
ITEM_STPG
  5
264C
 10
121.13392
 20
216.9053989999999
 30
0.0
 11
121.13392
 21
131.575197
 31
0.0
  0
LINE
  8
ITEM_STPG
  5
4CB2
 10
251.2789989999999
 20
235.42204
 30
0.0
 11
251.2789989999999
 21
124.0889439999999
 31
0.0
  0
ARC
  8
ITEM_50
  5
4CC4
 10
71.97296799999999
 20
55.49046599999999
 30
0.0
 40
1.460294999999999
 50
300.8121889999999
 51
57.92241299999999
  0
ARC
  8
ITEM_50
  5
4CC5
 10
130.294891
 20
55.49046599999999
 30
0.0
 40
1.460294999999999
 50
122.0775869999999
 51
239.187811
  0
LINE
  8
ITEM_50
  5
4CC6
 10
250.124299
 20
226.379578
 30
0.0
 11
248.9695979999999
 21
224.379578
 31
0.0
  0
LINE
  8
ITEM_50
  5
4CC7
 10
248.9695979999999
 20
224.379578
 30
0.0
 11
250.124299
 21
222.379578
 31
0.0
  0
LINE
  8
ITEM_50
  5
4CC8
 10
250.124299
 20
222.379578
 30
0.0
 11
252.4336999999999
 21
222.379578
 31
0.0
  0
LINE
  8
ITEM_50
  5
4CC9
 10
252.4336999999999
 20
222.379578
 30
0.0
 11
253.5884
 21
224.379578
 31
0.0
  0
LINE
  8
ITEM_50
  5
4CCA
 10
253.5884
 20
224.379578
 30
0.0
 11
252.4336999999999
 21
226.379578
 31
0.0
  0
LINE
  8
ITEM_50
  5
4CCB
 10
252.4336999999999
 20
226.379578
 30
0.0
 11
250.124299
 21
226.379578
 31
0.0
  0
LINE
  8
ITEM_25
  5
4CCC
 10
124.36892
 20
163.9218099999999
 30
0.0
 11
124.36892
 21
137.32844
 31
0.0
  0
LINE
  8
ITEM_25
  5
4CCD
 10
117.89892
 20
163.9218099999999
 30
0.0
 11
117.89892
 21
137.32844
 31
0.0
  0
LINE
  8
ITEM_50
  5
4CCE
 10
117.13392
 20
169.9218099999999
 30
0.0
 11
117.13392
 21
213.666131
 31
0.0
  0
POINT
  8
ITEM_HILFE
  5
4D7B
 10
61.13392
 20
75.524027
 30
0.0
  0
POINT
  8
ITEM_HILFE
  5
4D7C
 10
61.13392
 20
55.52402699999999
 30
0.0
  0
POINT
  8
ITEM_HILFE
  5
4D7D
 10
65.63392
 20
55.52402699999999
 30
0.0
  0
POINT
  8
ITEM_HILFE
  5
4D7E
 10
61.13392
 20
75.524027
 30
0.0
  0
POINT
  8
ITEM_HILFE
  5
4D7F
 10
136.6339199999999
 20
55.52402699999999
 30
0.0
  0
POINT
  8
ITEM_HILFE
  5
4D80
 10
141.1339199999999
 20
55.52402699999999
 30
0.0
  0
POINT
  8
ITEM_HILFE
  5
4D81
 10
141.1339199999999
 20
75.524027
 30
0.0
  0
POINT
  8
ITEM_HILFE
  5
4D82
 10
141.1339199999999
 20
35.52402699999999
 30
0.0
  0
POINT
  8
ITEM_HILFE
  5
4D83
 10
61.13392
 20
35.52402699999999
 30
0.0
  0
ENDSEC
  0
EOF
